ISO-10303-21;
HEADER;
FILE_DESCRIPTION (( 'STEP AP203' ),
    '1' );
FILE_NAME ('92871A053.step',
    '2015-04-13T18:13:36',
    ( '' ),
    ( '' ),
    'SwSTEP 2.0',
    'SolidWorks 2010',
    '' );
FILE_SCHEMA (( 'CONFIG_CONTROL_DESIGN' ));
ENDSEC;

DATA;
#1 = PRODUCT_DEFINITION_SHAPE ( 'NONE', 'NONE',  #221 ) ;
#2 = DESIGN_CONTEXT ( 'detailed design', #38, 'design' ) ;
#3 = UNCERTAINTY_MEASURE_WITH_UNIT (LENGTH_MEASURE( 1.000000000000000100E-005 ), #22, 'distance_accuracy_value', 'NONE');
#4 = ADVANCED_BREP_SHAPE_REPRESENTATION ( '92871A053', ( #5, #243 ), #194 ) ;
#5 = MANIFOLD_SOLID_BREP ( 'Extrude1', #147 ) ;
#6 = PERSON ( 'UNSPECIFIED', 'UNSPECIFIED', 'UNSPECIFIED', ('UNSPECIFIED'), ('UNSPECIFIED'), ('UNSPECIFIED') ) ;
#7 = PRODUCT ( '92871A053', '92871A053', '', ( #55 ) ) ;
#8 = DIRECTION ( 'NONE',  ( 0.0000000000000000000, 0.0000000000000000000, 1.000000000000000000 ) ) ;
#9 = PERSON_AND_ORGANIZATION_ROLE ( 'classification_officer' ) ;
#10 =( NAMED_UNIT ( * ) SI_UNIT ( $, .STERADIAN. ) SOLID_ANGLE_UNIT ( ) );
#11 = DIRECTION ( 'NONE',  ( 1.000000000000000000, 0.0000000000000000000, 0.0000000000000000000 ) ) ;
#12 = APPLICATION_PROTOCOL_DEFINITION ( 'international standard', 'config_control_design', 1994, #38 ) ;
#13 = CARTESIAN_POINT ( 'NONE',  ( -1.600000000000000100, 0.0000000000000000000, 7.000000000000000000 ) ) ;
#14 = DIRECTION ( 'NONE',  ( 1.000000000000000000, 0.0000000000000000000, -0.0000000000000000000 ) ) ;
#15 = DIRECTION ( 'NONE',  ( 1.000000000000000000, 0.0000000000000000000, 0.0000000000000000000 ) ) ;
#16 = DIRECTION ( 'NONE',  ( 0.0000000000000000000, 0.0000000000000000000, 1.000000000000000000 ) ) ;
#17 = DIRECTION ( 'NONE',  ( 0.0000000000000000000, 0.0000000000000000000, 1.000000000000000000 ) ) ;
#18 =( NAMED_UNIT ( * ) PLANE_ANGLE_UNIT ( ) SI_UNIT ( $, .RADIAN. ) );
#19 = CARTESIAN_POINT ( 'NONE',  ( 0.0000000000000000000, 0.0000000000000000000, -7.000000000000000000 ) ) ;
#20 = PLANE ( 'NONE',  #236 ) ;
#21 = CARTESIAN_POINT ( 'NONE',  ( 0.0000000000000000000, 0.0000000000000000000, 7.000000000000000000 ) ) ;
#22 =( LENGTH_UNIT ( ) NAMED_UNIT ( * ) SI_UNIT ( .MILLI., .METRE. ) );
#23 = APPLICATION_PROTOCOL_DEFINITION ( 'international standard', 'config_control_design', 1994, #71 ) ;
#24 = CARTESIAN_POINT ( 'NONE',  ( 0.0000000000000000000, 0.0000000000000000000, 7.000000000000000000 ) ) ;
#25 = DIRECTION ( 'NONE',  ( -0.0000000000000000000, -0.0000000000000000000, -1.000000000000000000 ) ) ;
#26 = DIRECTION ( 'NONE',  ( 0.0000000000000000000, 0.0000000000000000000, 1.000000000000000000 ) ) ;
#27 = CARTESIAN_POINT ( 'NONE',  ( -4.000000000000000000, 0.0000000000000000000, 7.000000000000000000 ) ) ;
#28 = DIRECTION ( 'NONE',  ( -0.0000000000000000000, -0.0000000000000000000, -1.000000000000000000 ) ) ;
#29 = DIRECTION ( 'NONE',  ( 1.000000000000000000, 0.0000000000000000000, 0.0000000000000000000 ) ) ;
#30 = CARTESIAN_POINT ( 'NONE',  ( 0.0000000000000000000, 0.0000000000000000000, 7.000000000000000000 ) ) ;
#31 = CARTESIAN_POINT ( 'NONE',  ( 0.0000000000000000000, 0.0000000000000000000, 7.000000000000000000 ) ) ;
#32 = DIRECTION ( 'NONE',  ( -1.000000000000000000, 0.0000000000000000000, 0.0000000000000000000 ) ) ;
#33 = DIRECTION ( 'NONE',  ( -0.0000000000000000000, -0.0000000000000000000, -1.000000000000000000 ) ) ;
#34 = DIRECTION ( 'NONE',  ( 0.0000000000000000000, 0.0000000000000000000, 1.000000000000000000 ) ) ;
#35 = DIRECTION ( 'NONE',  ( 1.000000000000000000, 0.0000000000000000000, 0.0000000000000000000 ) ) ;
#36 = CARTESIAN_POINT ( 'NONE',  ( 0.0000000000000000000, 0.0000000000000000000, 7.000000000000000000 ) ) ;
#37 = PERSON_AND_ORGANIZATION_ROLE ( 'creator' ) ;
#38 = APPLICATION_CONTEXT ( 'configuration controlled 3d designs of mechanical parts and assemblies' ) ;
#39 = DIRECTION ( 'NONE',  ( -1.000000000000000000, 0.0000000000000000000, 0.0000000000000000000 ) ) ;
#40 = CARTESIAN_POINT ( 'NONE',  ( 0.0000000000000000000, 0.0000000000000000000, 7.000000000000000000 ) ) ;
#41 = DIRECTION ( 'NONE',  ( -0.0000000000000000000, -0.0000000000000000000, -1.000000000000000000 ) ) ;
#42 = PERSON_AND_ORGANIZATION_ROLE ( 'creator' ) ;
#43 = CARTESIAN_POINT ( 'NONE',  ( 0.0000000000000000000, 0.0000000000000000000, -7.000000000000000000 ) ) ;
#44 = DIRECTION ( 'NONE',  ( -1.000000000000000000, 0.0000000000000000000, 0.0000000000000000000 ) ) ;
#45 = DIRECTION ( 'NONE',  ( -1.000000000000000000, 0.0000000000000000000, 0.0000000000000000000 ) ) ;
#46 = APPROVAL_STATUS ( 'not_yet_approved' ) ;
#47 = DIRECTION ( 'NONE',  ( 0.0000000000000000000, 0.0000000000000000000, 1.000000000000000000 ) ) ;
#48 = PLANE ( 'NONE',  #242 ) ;
#49 = PERSON_AND_ORGANIZATION_ROLE ( 'design_supplier' ) ;
#50 = CARTESIAN_POINT ( 'NONE',  ( 0.0000000000000000000, 0.0000000000000000000, -7.000000000000000000 ) ) ;
#51 = APPROVAL_STATUS ( 'not_yet_approved' ) ;
#52 = APPROVAL_ROLE ( '' ) ;
#53 = APPROVAL_ROLE ( '' ) ;
#54 = CARTESIAN_POINT ( 'NONE',  ( 1.600000000000000100, 1.959434878635765200E-016, 7.000000000000000000 ) ) ;
#55 = MECHANICAL_CONTEXT ( 'NONE', #71, 'mechanical' ) ;
#56 = DIRECTION ( 'NONE',  ( -0.0000000000000000000, -0.0000000000000000000, -1.000000000000000000 ) ) ;
#57 = CARTESIAN_POINT ( 'NONE',  ( 4.000000000000000000, 4.898587196589412800E-016, 7.000000000000000000 ) ) ;
#58 = CARTESIAN_POINT ( 'NONE',  ( 0.0000000000000000000, 0.0000000000000000000, -7.000000000000000000 ) ) ;
#59 = CARTESIAN_POINT ( 'NONE',  ( 0.0000000000000000000, 0.0000000000000000000, 7.000000000000000000 ) ) ;
#60 = DIRECTION ( 'NONE',  ( 0.0000000000000000000, 0.0000000000000000000, 1.000000000000000000 ) ) ;
#61 = DIRECTION ( 'NONE',  ( 0.0000000000000000000, 0.0000000000000000000, 1.000000000000000000 ) ) ;
#62 = DIRECTION ( 'NONE',  ( 1.000000000000000000, 0.0000000000000000000, 0.0000000000000000000 ) ) ;
#63 = CARTESIAN_POINT ( 'NONE',  ( 0.0000000000000000000, 0.0000000000000000000, 7.000000000000000000 ) ) ;
#64 = DIRECTION ( 'NONE',  ( 0.0000000000000000000, 0.0000000000000000000, 1.000000000000000000 ) ) ;
#65 = CARTESIAN_POINT ( 'NONE',  ( -4.000000000000000000, 0.0000000000000000000, -7.000000000000000000 ) ) ;
#66 = CARTESIAN_POINT ( 'NONE',  ( 1.600000000000000100, 1.959434878635765200E-016, 7.000000000000000000 ) ) ;
#67 = DIRECTION ( 'NONE',  ( 1.000000000000000000, 0.0000000000000000000, 0.0000000000000000000 ) ) ;
#68 = CARTESIAN_POINT ( 'NONE',  ( -1.600000000000000100, 0.0000000000000000000, -7.000000000000000000 ) ) ;
#69 = CARTESIAN_POINT ( 'NONE',  ( 4.000000000000000000, 4.898587196589412800E-016, 7.000000000000000000 ) ) ;
#70 = CARTESIAN_POINT ( 'NONE',  ( -4.000000000000000000, 0.0000000000000000000, 7.000000000000000000 ) ) ;
#71 = APPLICATION_CONTEXT ( 'configuration controlled 3d designs of mechanical parts and assemblies' ) ;
#72 = DIRECTION ( 'NONE',  ( 1.000000000000000000, 0.0000000000000000000, 0.0000000000000000000 ) ) ;
#73 = VERTEX_POINT ( 'NONE', #74 ) ;
#74 = CARTESIAN_POINT ( 'NONE',  ( -1.600000000000000100, 0.0000000000000000000, 7.000000000000000000 ) ) ;
#75 = VERTEX_POINT ( 'NONE', #70 ) ;
#76 = VERTEX_POINT ( 'NONE', #88 ) ;
#77 = CARTESIAN_POINT ( 'NONE',  ( 4.000000000000000000, 4.898587196589412800E-016, -7.000000000000000000 ) ) ;
#78 = DIRECTION ( 'NONE',  ( -0.0000000000000000000, -0.0000000000000000000, -1.000000000000000000 ) ) ;
#79 = CARTESIAN_POINT ( 'NONE',  ( 0.0000000000000000000, 0.0000000000000000000, 0.0000000000000000000 ) ) ;
#80 = DATE_TIME_ROLE ( 'classification_date' ) ;
#81 = VERTEX_POINT ( 'NONE', #69 ) ;
#82 = VERTEX_POINT ( 'NONE', #77 ) ;
#83 = VERTEX_POINT ( 'NONE', #68 ) ;
#84 = VERTEX_POINT ( 'NONE', #66 ) ;
#85 = VERTEX_POINT ( 'NONE', #65 ) ;
#86 = DATE_TIME_ROLE ( 'creation_date' ) ;
#87 = DIRECTION ( 'NONE',  ( 1.000000000000000000, 0.0000000000000000000, 0.0000000000000000000 ) ) ;
#88 = CARTESIAN_POINT ( 'NONE',  ( 1.600000000000000100, 1.959434878635765200E-016, -7.000000000000000000 ) ) ;
#89 = PERSON_AND_ORGANIZATION_ROLE ( 'design_owner' ) ;
#90 = DIRECTION ( 'NONE',  ( 0.0000000000000000000, 0.0000000000000000000, 1.000000000000000000 ) ) ;
#91 = SECURITY_CLASSIFICATION_LEVEL ( 'unclassified' ) ;
#92 = APPROVAL_ROLE ( '' ) ;
#93 = DIRECTION ( 'NONE',  ( -0.0000000000000000000, -0.0000000000000000000, -1.000000000000000000 ) ) ;
#94 = CARTESIAN_POINT ( 'NONE',  ( 0.0000000000000000000, 0.0000000000000000000, -7.000000000000000000 ) ) ;
#95 = DIRECTION ( 'NONE',  ( 0.0000000000000000000, 0.0000000000000000000, 1.000000000000000000 ) ) ;
#96 = DIRECTION ( 'NONE',  ( 1.000000000000000000, 0.0000000000000000000, -0.0000000000000000000 ) ) ;
#97 = APPROVAL_STATUS ( 'not_yet_approved' ) ;
#98 = DIRECTION ( 'NONE',  ( 1.000000000000000000, 0.0000000000000000000, 0.0000000000000000000 ) ) ;
#99 = CARTESIAN_POINT ( 'NONE',  ( 0.0000000000000000000, 0.0000000000000000000, 7.000000000000000000 ) ) ;
#100 = DIRECTION ( 'NONE',  ( -0.0000000000000000000, -0.0000000000000000000, -1.000000000000000000 ) ) ;
#101 = CALENDAR_DATE ( 2015, 13, 4 ) ;
#102 = LOCAL_TIME ( 13, 13, 36.00000000000000000, #188 ) ;
#103 = ORIENTED_EDGE ( 'NONE', *, *, #211, .T. ) ;
#104 = ORIENTED_EDGE ( 'NONE', *, *, #206, .F. ) ;
#105 = EDGE_LOOP ( 'NONE', ( #124, #106 ) ) ;
#106 = ORIENTED_EDGE ( 'NONE', *, *, #213, .T. ) ;
#107 = EDGE_LOOP ( 'NONE', ( #121, #142 ) ) ;
#108 = EDGE_LOOP ( 'NONE', ( #145, #127, #150, #143 ) ) ;
#109 = EDGE_LOOP ( 'NONE', ( #144, #146 ) ) ;
#110 = EDGE_LOOP ( 'NONE', ( #123, #155, #125, #149 ) ) ;
#111 = FACE_OUTER_BOUND ( 'NONE', #108, .T. ) ;
#112 = CIRCLE ( 'NONE', #228, 4.000000000000000000 ) ;
#113 = FACE_OUTER_BOUND ( 'NONE', #107, .T. ) ;
#114 = FACE_OUTER_BOUND ( 'NONE', #105, .T. ) ;
#115 = CYLINDRICAL_SURFACE ( 'NONE', #240, 1.600000000000000100 ) ;
#116 = FACE_OUTER_BOUND ( 'NONE', #110, .T. ) ;
#117 = FACE_BOUND ( 'NONE', #109, .T. ) ;
#118 = ORIENTED_EDGE ( 'NONE', *, *, #200, .F. ) ;
#119 = FACE_BOUND ( 'NONE', #187, .T. ) ;
#120 = CYLINDRICAL_SURFACE ( 'NONE', #238, 1.600000000000000100 ) ;
#121 = ORIENTED_EDGE ( 'NONE', *, *, #204, .F. ) ;
#122 = CYLINDRICAL_SURFACE ( 'NONE', #239, 4.000000000000000000 ) ;
#123 = ORIENTED_EDGE ( 'NONE', *, *, #213, .F. ) ;
#124 = ORIENTED_EDGE ( 'NONE', *, *, #216, .T. ) ;
#125 = ORIENTED_EDGE ( 'NONE', *, *, #232, .T. ) ;
#126 = ORIENTED_EDGE ( 'NONE', *, *, #202, .F. ) ;
#127 = ORIENTED_EDGE ( 'NONE', *, *, #216, .F. ) ;
#128 = CYLINDRICAL_SURFACE ( 'NONE', #234, 4.000000000000000000 ) ;
#129 = LINE ( 'NONE', #27, #137 ) ;
#130 = CIRCLE ( 'NONE', #209, 1.600000000000000100 ) ;
#131 = CIRCLE ( 'NONE', #208, 1.600000000000000100 ) ;
#132 = LINE ( 'NONE', #13, #158 ) ;
#133 = CIRCLE ( 'NONE', #241, 4.000000000000000000 ) ;
#134 = LINE ( 'NONE', #54, #135 ) ;
#135 = VECTOR ( 'NONE', #56, 1000.000000000000000 ) ;
#136 = CIRCLE ( 'NONE', #222, 4.000000000000000000 ) ;
#137 = VECTOR ( 'NONE', #93, 1000.000000000000000 ) ;
#138 = CIRCLE ( 'NONE', #205, 4.000000000000000000 ) ;
#139 = FACE_OUTER_BOUND ( 'NONE', #184, .T. ) ;
#140 = CIRCLE ( 'NONE', #230, 1.600000000000000100 ) ;
#141 = FACE_OUTER_BOUND ( 'NONE', #156, .T. ) ;
#142 = ORIENTED_EDGE ( 'NONE', *, *, #232, .F. ) ;
#143 = ORIENTED_EDGE ( 'NONE', *, *, #204, .T. ) ;
#144 = ORIENTED_EDGE ( 'NONE', *, *, #203, .T. ) ;
#145 = ORIENTED_EDGE ( 'NONE', *, *, #201, .F. ) ;
#146 = ORIENTED_EDGE ( 'NONE', *, *, #217, .T. ) ;
#147 = CLOSED_SHELL ( 'NONE', ( #248, #247, #249, #245, #244, #246 ) ) ;
#148 = ORIENTED_EDGE ( 'NONE', *, *, #200, .T. ) ;
#149 = ORIENTED_EDGE ( 'NONE', *, *, #220, .F. ) ;
#150 = ORIENTED_EDGE ( 'NONE', *, *, #220, .T. ) ;
#151 = ORIENTED_EDGE ( 'NONE', *, *, #202, .T. ) ;
#152 = ORIENTED_EDGE ( 'NONE', *, *, #206, .T. ) ;
#153 = ORIENTED_EDGE ( 'NONE', *, *, #217, .F. ) ;
#154 = ORIENTED_EDGE ( 'NONE', *, *, #211, .F. ) ;
#155 = ORIENTED_EDGE ( 'NONE', *, *, #201, .T. ) ;
#156 = EDGE_LOOP ( 'NONE', ( #148, #103, #161, #104 ) ) ;
#157 = VECTOR ( 'NONE', #100, 1000.000000000000000 ) ;
#158 = VECTOR ( 'NONE', #41, 1000.000000000000000 ) ;
#159 = LINE ( 'NONE', #57, #157 ) ;
#160 = CIRCLE ( 'NONE', #199, 1.600000000000000100 ) ;
#161 = ORIENTED_EDGE ( 'NONE', *, *, #203, .F. ) ;
#162 = DATE_AND_TIME ( #101, #178 ) ;
#163 = CALENDAR_DATE ( 2015, 13, 4 ) ;
#164 = APPROVAL_PERSON_ORGANIZATION ( #192, #210, #92 ) ;
#165 = COORDINATED_UNIVERSAL_TIME_OFFSET ( 6, 0, .BEHIND. ) ;
#166 = APPROVAL_DATE_TIME ( #167, #218 ) ;
#167 = DATE_AND_TIME ( #179, #102 ) ;
#168 = APPROVAL_PERSON_ORGANIZATION ( #177, #224, #52 ) ;
#169 = ORGANIZATION ( 'UNSPECIFIED', 'UNSPECIFIED', '' ) ;
#170 = APPROVAL_PERSON_ORGANIZATION ( #182, #218, #53 ) ;
#171 = DATE_AND_TIME ( #190, #176 ) ;
#172 = APPROVAL_DATE_TIME ( #162, #210 ) ;
#173 = LOCAL_TIME ( 13, 13, 36.00000000000000000, #181 ) ;
#174 = PERSON_AND_ORGANIZATION ( #6, #169 ) ;
#175 = PERSON_AND_ORGANIZATION ( #6, #169 ) ;
#176 = LOCAL_TIME ( 13, 13, 36.00000000000000000, #165 ) ;
#177 = PERSON_AND_ORGANIZATION ( #6, #169 ) ;
#178 = LOCAL_TIME ( 13, 13, 36.00000000000000000, #185 ) ;
#179 = CALENDAR_DATE ( 2015, 13, 4 ) ;
#180 = CALENDAR_DATE ( 2015, 13, 4 ) ;
#181 = COORDINATED_UNIVERSAL_TIME_OFFSET ( 6, 0, .BEHIND. ) ;
#182 = PERSON_AND_ORGANIZATION ( #6, #169 ) ;
#183 = DATE_AND_TIME ( #163, #173 ) ;
#184 = EDGE_LOOP ( 'NONE', ( #154, #151, #152, #153 ) ) ;
#185 = COORDINATED_UNIVERSAL_TIME_OFFSET ( 6, 0, .BEHIND. ) ;
#186 = PERSON_AND_ORGANIZATION ( #6, #169 ) ;
#187 = EDGE_LOOP ( 'NONE', ( #118, #126 ) ) ;
#188 = COORDINATED_UNIVERSAL_TIME_OFFSET ( 6, 0, .BEHIND. ) ;
#189 = DATE_AND_TIME ( #180, #196 ) ;
#190 = CALENDAR_DATE ( 2015, 13, 4 ) ;
#191 = APPROVAL_DATE_TIME ( #189, #224 ) ;
#192 = PERSON_AND_ORGANIZATION ( #6, #169 ) ;
#193 = SHAPE_DEFINITION_REPRESENTATION ( #1, #4 ) ;
#194 =( GEOMETRIC_REPRESENTATION_CONTEXT ( 3 ) GLOBAL_UNCERTAINTY_ASSIGNED_CONTEXT ( ( #3 ) ) GLOBAL_UNIT_ASSIGNED_CONTEXT ( ( #22, #18, #10 ) ) REPRESENTATION_CONTEXT ( 'NONE', 'WORKASPACE' ) );
#195 = PERSON_AND_ORGANIZATION ( #6, #169 ) ;
#196 = LOCAL_TIME ( 13, 13, 36.00000000000000000, #197 ) ;
#197 = COORDINATED_UNIVERSAL_TIME_OFFSET ( 6, 0, .BEHIND. ) ;
#198 = PERSON_AND_ORGANIZATION ( #6, #169 ) ;
#199 = AXIS2_PLACEMENT_3D ( 'NONE', #59, #60, #11 ) ;
#200 = EDGE_CURVE ( 'NONE', #73, #84, #160, .T. ) ;
#201 = EDGE_CURVE ( 'NONE', #81, #82, #159, .T. ) ;
#202 = EDGE_CURVE ( 'NONE', #84, #73, #130, .T. ) ;
#203 = EDGE_CURVE ( 'NONE', #83, #76, #131, .T. ) ;
#204 = EDGE_CURVE ( 'NONE', #85, #82, #133, .T. ) ;
#205 = AXIS2_PLACEMENT_3D ( 'NONE', #63, #64, #67 ) ;
#206 = EDGE_CURVE ( 'NONE', #73, #83, #132, .T. ) ;
#207 = PRODUCT_DEFINITION_FORMATION_WITH_SPECIFIED_SOURCE ( 'ANY', '', #7, .NOT_KNOWN. ) ;
#208 = AXIS2_PLACEMENT_3D ( 'NONE', #94, #8, #15 ) ;
#209 = AXIS2_PLACEMENT_3D ( 'NONE', #99, #95, #98 ) ;
#210 = APPROVAL ( #46, 'UNSPECIFIED' ) ;
#211 = EDGE_CURVE ( 'NONE', #84, #76, #134, .T. ) ;
#212 = CC_DESIGN_DATE_AND_TIME_ASSIGNMENT ( #183, #86, ( #221 ) ) ;
#213 = EDGE_CURVE ( 'NONE', #81, #75, #136, .T. ) ;
#214 = CC_DESIGN_PERSON_AND_ORGANIZATION_ASSIGNMENT ( #198, #37, ( #221 ) ) ;
#215 = CC_DESIGN_PERSON_AND_ORGANIZATION_ASSIGNMENT ( #195, #49, ( #207 ) ) ;
#216 = EDGE_CURVE ( 'NONE', #75, #81, #138, .T. ) ;
#217 = EDGE_CURVE ( 'NONE', #76, #83, #140, .T. ) ;
#218 = APPROVAL ( #51, 'UNSPECIFIED' ) ;
#219 = SECURITY_CLASSIFICATION ( '', '', #91 ) ;
#220 = EDGE_CURVE ( 'NONE', #75, #85, #129, .T. ) ;
#221 = PRODUCT_DEFINITION ( 'UNKNOWN', '', #207, #2 ) ;
#222 = AXIS2_PLACEMENT_3D ( 'NONE', #31, #61, #62 ) ;
#223 = CC_DESIGN_PERSON_AND_ORGANIZATION_ASSIGNMENT ( #186, #9, ( #219 ) ) ;
#224 = APPROVAL ( #97, 'UNSPECIFIED' ) ;
#225 = CC_DESIGN_PERSON_AND_ORGANIZATION_ASSIGNMENT ( #174, #42, ( #207 ) ) ;
#226 = CC_DESIGN_APPROVAL ( #218, ( #221 ) ) ;
#227 = PRODUCT_RELATED_PRODUCT_CATEGORY ( 'detail', '', ( #7 ) ) ;
#228 = AXIS2_PLACEMENT_3D ( 'NONE', #50, #34, #35 ) ;
#229 = CC_DESIGN_SECURITY_CLASSIFICATION ( #219, ( #207 ) ) ;
#230 = AXIS2_PLACEMENT_3D ( 'NONE', #58, #16, #72 ) ;
#231 = CC_DESIGN_APPROVAL ( #224, ( #207 ) ) ;
#232 = EDGE_CURVE ( 'NONE', #82, #85, #112, .T. ) ;
#233 = CC_DESIGN_APPROVAL ( #210, ( #219 ) ) ;
#234 = AXIS2_PLACEMENT_3D ( 'NONE', #36, #33, #32 ) ;
#235 = CC_DESIGN_PERSON_AND_ORGANIZATION_ASSIGNMENT ( #175, #89, ( #7 ) ) ;
#236 = AXIS2_PLACEMENT_3D ( 'NONE', #21, #17, #14 ) ;
#237 = CC_DESIGN_DATE_AND_TIME_ASSIGNMENT ( #171, #80, ( #219 ) ) ;
#238 = AXIS2_PLACEMENT_3D ( 'NONE', #24, #25, #44 ) ;
#239 = AXIS2_PLACEMENT_3D ( 'NONE', #30, #28, #39 ) ;
#240 = AXIS2_PLACEMENT_3D ( 'NONE', #40, #78, #45 ) ;
#241 = AXIS2_PLACEMENT_3D ( 'NONE', #19, #26, #29 ) ;
#242 = AXIS2_PLACEMENT_3D ( 'NONE', #43, #47, #96 ) ;
#243 = AXIS2_PLACEMENT_3D ( 'NONE', #79, #90, #87 ) ;
#244 = ADVANCED_FACE ( 'NONE', ( #111 ), #128, .T. ) ;
#245 = ADVANCED_FACE ( 'NONE', ( #113, #117 ), #48, .F. ) ;
#246 = ADVANCED_FACE ( 'NONE', ( #139 ), #115, .F. ) ;
#247 = ADVANCED_FACE ( 'NONE', ( #116 ), #122, .T. ) ;
#248 = ADVANCED_FACE ( 'NONE', ( #141 ), #120, .F. ) ;
#249 = ADVANCED_FACE ( 'NONE', ( #114, #119 ), #20, .T. ) ;
ENDSEC;
END-ISO-10303-21;
